ISO-10303-21;
HEADER;
FILE_DESCRIPTION (( 'STEP AP203' ),
    '1' );
FILE_NAME ('QM-AAQWP-15-450-650-M.STEP',
    '2021-01-05T02:42:19',
    ( '' ),
    ( '' ),
    'SwSTEP 2.0',
    'SolidWorks 2020',
    '' );
FILE_SCHEMA (( 'CONFIG_CONTROL_DESIGN' ));
ENDSEC;

DATA;
#1 = ORGANIZATION ( 'UNSPECIFIED', 'UNSPECIFIED', '' ) ;
#2 = CARTESIAN_POINT ( 'NONE',  ( 3.000000000000000000, 12.69999999999999929, 0.000000000000000000 ) ) ;
#3 = DIRECTION ( 'NONE',  ( 1.000000000000000000, 0.000000000000000000, 0.000000000000000000 ) ) ;
#4 = CARTESIAN_POINT ( 'NONE',  ( -1.614212418857619014, 0.000000000000000000, 0.000000000000000000 ) ) ;
#5 = PERSON_AND_ORGANIZATION ( #40, #1 ) ;
#6 = MECHANICAL_CONTEXT ( 'NONE', #114, 'mechanical' ) ;
#7 =( NAMED_UNIT ( * ) PLANE_ANGLE_UNIT ( ) SI_UNIT ( $, .RADIAN. ) );
#8 = DIRECTION ( 'NONE',  ( 0.000000000000000000, 0.000000000000000000, 1.000000000000000000 ) ) ;
#9 = DIRECTION ( 'NONE',  ( 0.000000000000000000, 0.000000000000000000, 1.000000000000000000 ) ) ;
#10 = AXIS2_PLACEMENT_3D ( 'NONE', #150, #149, #246 ) ;
#11 = DIRECTION ( 'NONE',  ( -1.000000000000000000, -0.000000000000000000, -0.000000000000000000 ) ) ;
#12 = AXIS2_PLACEMENT_3D ( 'NONE', #167, #61, #9 ) ;
#13 = ADVANCED_FACE ( 'NONE', ( #237 ), #22, .F. ) ;
#14 = AXIS2_PLACEMENT_3D ( 'NONE', #70, #39, #179 ) ;
#15 = ORIENTED_EDGE ( 'NONE', *, *, #154, .F. ) ;
#16 = ORIENTED_EDGE ( 'NONE', *, *, #119, .F. ) ;
#17 = DIRECTION ( 'NONE',  ( -1.000000000000000000, -0.000000000000000000, -0.000000000000000000 ) ) ;
#18 = APPROVAL_PERSON_ORGANIZATION ( #27, #323, #192 ) ;
#19 = ORIENTED_EDGE ( 'NONE', *, *, #262, .F. ) ;
#20 = CC_DESIGN_PERSON_AND_ORGANIZATION_ASSIGNMENT ( #194, #292, ( #320 ) ) ;
#21 = EDGE_LOOP ( 'NONE', ( #153, #160 ) ) ;
#22 = CYLINDRICAL_SURFACE ( 'NONE', #263, 7.499999999999998224 ) ;
#23 = CARTESIAN_POINT ( 'NONE',  ( -3.000000000000000000, 0.000000000000000000, 0.000000000000000000 ) ) ;
#24 = CYLINDRICAL_SURFACE ( 'NONE', #12, 7.499999999999998224 ) ;
#25 = DIRECTION ( 'NONE',  ( 0.000000000000000000, 0.000000000000000000, 1.000000000000000000 ) ) ;
#26 = EDGE_CURVE ( 'NONE', #178, #69, #56, .T. ) ;
#27 = PERSON_AND_ORGANIZATION ( #40, #1 ) ;
#28 = CC_DESIGN_DATE_AND_TIME_ASSIGNMENT ( #313, #265, ( #62 ) ) ;
#29 = CLOSED_SHELL ( 'NONE', ( #58, #37, #148, #173, #13, #238, #106, #242, #331, #48 ) ) ;
#30 = APPROVAL_STATUS ( 'not_yet_approved' ) ;
#31 = DATE_TIME_ROLE ( 'creation_date' ) ;
#32 = PLANE ( 'NONE',  #163 ) ;
#33 = APPROVAL ( #30, 'UNSPECIFIED' ) ;
#34 = AXIS2_PLACEMENT_3D ( 'NONE', #52, #214, #80 ) ;
#35 = AXIS2_PLACEMENT_3D ( 'NONE', #23, #276, #25 ) ;
#36 = DIRECTION ( 'NONE',  ( 0.000000000000000000, 0.000000000000000000, 1.000000000000000000 ) ) ;
#37 = ADVANCED_FACE ( 'NONE', ( #258 ), #24, .F. ) ;
#38 = CARTESIAN_POINT ( 'NONE',  ( 0.5000000000000008882, 0.000000000000000000, 7.500000000000000000 ) ) ;
#39 = DIRECTION ( 'NONE',  ( -1.000000000000000000, -0.000000000000000000, -0.000000000000000000 ) ) ;
#40 = PERSON ( 'UNSPECIFIED', 'UNSPECIFIED', 'UNSPECIFIED', ('UNSPECIFIED'), ('UNSPECIFIED'), ('UNSPECIFIED') ) ;
#41 = APPROVAL_PERSON_ORGANIZATION ( #5, #33, #215 ) ;
#42 = ORIENTED_EDGE ( 'NONE', *, *, #119, .T. ) ;
#43 = EDGE_LOOP ( 'NONE', ( #152, #228, #306, #73 ) ) ;
#44 = ORIENTED_EDGE ( 'NONE', *, *, #91, .T. ) ;
#45 = CARTESIAN_POINT ( 'NONE',  ( -3.000000000000000000, 0.000000000000000000, 7.500000000000000000 ) ) ;
#46 = VECTOR ( 'NONE', #181, 1000.000000000000000 ) ;
#47 = ORIENTED_EDGE ( 'NONE', *, *, #26, .F. ) ;
#48 = ADVANCED_FACE ( 'NONE', ( #287 ), #32, .F. ) ;
#49 = CARTESIAN_POINT ( 'NONE',  ( 0.5000000000000008882, 9.184850993605147944E-16, -7.500000000000000000 ) ) ;
#50 = ORIENTED_EDGE ( 'NONE', *, *, #227, .T. ) ;
#51 = EDGE_CURVE ( 'NONE', #272, #256, #191, .T. ) ;
#52 = CARTESIAN_POINT ( 'NONE',  ( 0.5000000000000008882, 0.000000000000000000, 0.000000000000000000 ) ) ;
#53 = AXIS2_PLACEMENT_3D ( 'NONE', #330, #231, #333 ) ;
#54 = FACE_OUTER_BOUND ( 'NONE', #332, .T. ) ;
#55 = COORDINATED_UNIVERSAL_TIME_OFFSET ( 8, 0, .AHEAD. ) ;
#56 = CIRCLE ( 'NONE', #121, 7.499999999999998224 ) ;
#57 = VECTOR ( 'NONE', #250, 1000.000000000000000 ) ;
#58 = ADVANCED_FACE ( 'NONE', ( #211 ), #198, .T. ) ;
#59 = APPLICATION_PROTOCOL_DEFINITION ( 'international standard', 'config_control_design', 1994, #114 ) ;
#60 = SHAPE_DEFINITION_REPRESENTATION ( #110, #101 ) ;
#61 = DIRECTION ( 'NONE',  ( -1.000000000000000000, -0.000000000000000000, -0.000000000000000000 ) ) ;
#62 = SECURITY_CLASSIFICATION ( '', '', #321 ) ;
#63 = CARTESIAN_POINT ( 'NONE',  ( -0.5000000000000004441, 9.184850993605145972E-16, -7.499999999999998224 ) ) ;
#64 = LINE ( 'NONE', #97, #170 ) ;
#65 = EDGE_CURVE ( 'NONE', #137, #103, #268, .T. ) ;
#66 = CARTESIAN_POINT ( 'NONE',  ( -1.614212418857619014, 0.000000000000000000, 12.69999999999999929 ) ) ;
#67 = ORIENTED_EDGE ( 'NONE', *, *, #227, .F. ) ;
#68 = LOCAL_TIME ( 10, 42, 19.00000000000000000, #55 ) ;
#69 = VERTEX_POINT ( 'NONE', #243 ) ;
#70 = CARTESIAN_POINT ( 'NONE',  ( -1.614212418857619014, 0.000000000000000000, 0.000000000000000000 ) ) ;
#71 = VERTEX_POINT ( 'NONE', #112 ) ;
#72 = CIRCLE ( 'NONE', #325, 12.69999999999999929 ) ;
#73 = ORIENTED_EDGE ( 'NONE', *, *, #219, .F. ) ;
#74 = CARTESIAN_POINT ( 'NONE',  ( -1.614212418857619014, 9.184850993605145972E-16, -7.499999999999998224 ) ) ;
#75 = ORIENTED_EDGE ( 'NONE', *, *, #327, .T. ) ;
#76 =( LENGTH_UNIT ( ) NAMED_UNIT ( * ) SI_UNIT ( .MILLI., .METRE. ) );
#77 = CARTESIAN_POINT ( 'NONE',  ( -3.000000000000000000, 0.000000000000000000, 0.000000000000000000 ) ) ;
#78 = PRODUCT_RELATED_PRODUCT_CATEGORY ( 'detail', '', ( #117 ) ) ;
#79 =( NAMED_UNIT ( * ) SI_UNIT ( $, .STERADIAN. ) SOLID_ANGLE_UNIT ( ) );
#80 = DIRECTION ( 'NONE',  ( 0.000000000000000000, 0.000000000000000000, 1.000000000000000000 ) ) ;
#81 = APPLICATION_CONTEXT ( 'configuration controlled 3d designs of mechanical parts and assemblies' ) ;
#82 = CARTESIAN_POINT ( 'NONE',  ( 3.000000000000000000, 1.555301434917138433E-15, -12.69999999999999929 ) ) ;
#83 = CALENDAR_DATE ( 2021, 5, 1 ) ;
#84 = PERSON_AND_ORGANIZATION_ROLE ( 'creator' ) ;
#85 = AXIS2_PLACEMENT_3D ( 'NONE', #77, #217, #284 ) ;
#86 = EDGE_CURVE ( 'NONE', #180, #301, #234, .T. ) ;
#87 = APPROVAL_PERSON_ORGANIZATION ( #118, #319, #147 ) ;
#88 = DATE_AND_TIME ( #83, #196 ) ;
#89 = PERSON_AND_ORGANIZATION ( #40, #1 ) ;
#90 = DIRECTION ( 'NONE',  ( 0.000000000000000000, 0.000000000000000000, 1.000000000000000000 ) ) ;
#91 = EDGE_CURVE ( 'NONE', #277, #142, #144, .T. ) ;
#92 = COORDINATED_UNIVERSAL_TIME_OFFSET ( 8, 0, .AHEAD. ) ;
#93 = AXIS2_PLACEMENT_3D ( 'NONE', #102, #282, #136 ) ;
#94 = EDGE_LOOP ( 'NONE', ( #334, #184 ) ) ;
#95 = VERTEX_POINT ( 'NONE', #315 ) ;
#96 = CC_DESIGN_DATE_AND_TIME_ASSIGNMENT ( #241, #31, ( #320 ) ) ;
#97 = CARTESIAN_POINT ( 'NONE',  ( -1.614212418857619014, 0.000000000000000000, 7.499999999999998224 ) ) ;
#98 = CIRCLE ( 'NONE', #35, 12.69999999999999929 ) ;
#99 = CARTESIAN_POINT ( 'NONE',  ( -3.000000000000000000, 0.000000000000000000, 0.000000000000000000 ) ) ;
#100 = EDGE_LOOP ( 'NONE', ( #19, #15, #158, #209 ) ) ;
#101 = ADVANCED_BREP_SHAPE_REPRESENTATION ( 'QM-AAQWP-15-450-650-M', ( #296, #328 ), #122 ) ;
#102 = CARTESIAN_POINT ( 'NONE',  ( 0.5000000000000008882, 0.000000000000000000, 0.000000000000000000 ) ) ;
#103 = VERTEX_POINT ( 'NONE', #82 ) ;
#104 = DIRECTION ( 'NONE',  ( -1.000000000000000000, -0.000000000000000000, -0.000000000000000000 ) ) ;
#105 = VECTOR ( 'NONE', #11, 1000.000000000000000 ) ;
#106 = ADVANCED_FACE ( 'NONE', ( #288, #54 ), #266, .F. ) ;
#107 = DIRECTION ( 'NONE',  ( -0.000000000000000000, 0.000000000000000000, 1.000000000000000000 ) ) ;
#108 = DIRECTION ( 'NONE',  ( -1.000000000000000000, -0.000000000000000000, -0.000000000000000000 ) ) ;
#109 = DIRECTION ( 'NONE',  ( -1.000000000000000000, -0.000000000000000000, -0.000000000000000000 ) ) ;
#110 = PRODUCT_DEFINITION_SHAPE ( 'NONE', 'NONE',  #320 ) ;
#111 = DIRECTION ( 'NONE',  ( -1.000000000000000000, -0.000000000000000000, -0.000000000000000000 ) ) ;
#112 = CARTESIAN_POINT ( 'NONE',  ( -3.000000000000000000, 1.555301434917138433E-15, -12.69999999999999929 ) ) ;
#113 = PERSON_AND_ORGANIZATION ( #40, #1 ) ;
#114 = APPLICATION_CONTEXT ( 'configuration controlled 3d designs of mechanical parts and assemblies' ) ;
#115 = CALENDAR_DATE ( 2021, 5, 1 ) ;
#116 = DIRECTION ( 'NONE',  ( 1.000000000000000000, 0.000000000000000000, 0.000000000000000000 ) ) ;
#117 = PRODUCT ( 'QM-AAQWP-15-450-650-M', 'QM-AAQWP-15-450-650-M', '', ( #6 ) ) ;
#118 = PERSON_AND_ORGANIZATION ( #40, #1 ) ;
#119 = EDGE_CURVE ( 'NONE', #301, #180, #312, .T. ) ;
#120 = CARTESIAN_POINT ( 'NONE',  ( 0.5000000000000004441, 7.500000000000000000, 0.000000000000000000 ) ) ;
#121 = AXIS2_PLACEMENT_3D ( 'NONE', #261, #162, #240 ) ;
#122 =( GEOMETRIC_REPRESENTATION_CONTEXT ( 3 ) GLOBAL_UNCERTAINTY_ASSIGNED_CONTEXT ( ( #310 ) ) GLOBAL_UNIT_ASSIGNED_CONTEXT ( ( #76, #7, #79 ) ) REPRESENTATION_CONTEXT ( 'NONE', 'WORKASPACE' ) );
#123 = CC_DESIGN_PERSON_AND_ORGANIZATION_ASSIGNMENT ( #89, #293, ( #62 ) ) ;
#124 = ORIENTED_EDGE ( 'NONE', *, *, #267, .T. ) ;
#125 = ORIENTED_EDGE ( 'NONE', *, *, #185, .F. ) ;
#126 = AXIS2_PLACEMENT_3D ( 'NONE', #245, #116, #224 ) ;
#127 = CIRCLE ( 'NONE', #53, 7.499999999999998224 ) ;
#128 = ORIENTED_EDGE ( 'NONE', *, *, #185, .T. ) ;
#129 = EDGE_CURVE ( 'NONE', #256, #142, #64, .T. ) ;
#130 = CARTESIAN_POINT ( 'NONE',  ( -1.614212418857619014, 0.000000000000000000, 7.499999999999998224 ) ) ;
#131 = DIRECTION ( 'NONE',  ( -1.000000000000000000, -0.000000000000000000, -0.000000000000000000 ) ) ;
#132 = DIRECTION ( 'NONE',  ( -1.000000000000000000, -0.000000000000000000, -0.000000000000000000 ) ) ;
#133 = FACE_BOUND ( 'NONE', #94, .T. ) ;
#134 = CC_DESIGN_APPROVAL ( #319, ( #62 ) ) ;
#135 = CARTESIAN_POINT ( 'NONE',  ( -0.5000000000000004441, 7.500000000000000000, 0.000000000000000000 ) ) ;
#136 = DIRECTION ( 'NONE',  ( 0.000000000000000000, 0.000000000000000000, 1.000000000000000000 ) ) ;
#137 = VERTEX_POINT ( 'NONE', #271 ) ;
#138 = CARTESIAN_POINT ( 'NONE',  ( 3.000000000000000000, 0.000000000000000000, 0.000000000000000000 ) ) ;
#139 = CARTESIAN_POINT ( 'NONE',  ( 0.000000000000000000, 0.000000000000000000, 0.000000000000000000 ) ) ;
#140 = PERSON_AND_ORGANIZATION ( #40, #1 ) ;
#141 = CALENDAR_DATE ( 2021, 5, 1 ) ;
#142 = VERTEX_POINT ( 'NONE', #38 ) ;
#143 = DATE_AND_TIME ( #195, #273 ) ;
#144 = CIRCLE ( 'NONE', #34, 7.500000000000000000 ) ;
#145 = CC_DESIGN_APPROVAL ( #33, ( #204 ) ) ;
#146 = FACE_OUTER_BOUND ( 'NONE', #251, .T. ) ;
#147 = APPROVAL_ROLE ( '' ) ;
#148 = ADVANCED_FACE ( 'NONE', ( #146 ), #202, .F. ) ;
#149 = DIRECTION ( 'NONE',  ( -1.000000000000000000, -0.000000000000000000, -0.000000000000000000 ) ) ;
#150 = CARTESIAN_POINT ( 'NONE',  ( 3.000000000000000000, 0.000000000000000000, 0.000000000000000000 ) ) ;
#151 = CIRCLE ( 'NONE', #10, 7.499999999999997335 ) ;
#152 = ORIENTED_EDGE ( 'NONE', *, *, #267, .F. ) ;
#153 = ORIENTED_EDGE ( 'NONE', *, *, #65, .F. ) ;
#154 = EDGE_CURVE ( 'NONE', #256, #272, #151, .T. ) ;
#155 = CARTESIAN_POINT ( 'NONE',  ( -1.614212418857619014, 0.000000000000000000, 0.000000000000000000 ) ) ;
#156 = ORIENTED_EDGE ( 'NONE', *, *, #26, .T. ) ;
#157 = DIRECTION ( 'NONE',  ( -1.000000000000000000, 0.000000000000000000, -0.000000000000000000 ) ) ;
#158 = ORIENTED_EDGE ( 'NONE', *, *, #129, .T. ) ;
#159 = CYLINDRICAL_SURFACE ( 'NONE', #304, 7.499999999999998224 ) ;
#160 = ORIENTED_EDGE ( 'NONE', *, *, #175, .F. ) ;
#161 = LINE ( 'NONE', #130, #187 ) ;
#162 = DIRECTION ( 'NONE',  ( 1.000000000000000000, 0.000000000000000000, 0.000000000000000000 ) ) ;
#163 = AXIS2_PLACEMENT_3D ( 'NONE', #135, #3, #259 ) ;
#164 = DIRECTION ( 'NONE',  ( 0.000000000000000000, 0.000000000000000000, 1.000000000000000000 ) ) ;
#165 = DIRECTION ( 'NONE',  ( 0.000000000000000000, 0.000000000000000000, 1.000000000000000000 ) ) ;
#166 = APPLICATION_PROTOCOL_DEFINITION ( 'international standard', 'config_control_design', 1994, #81 ) ;
#167 = CARTESIAN_POINT ( 'NONE',  ( -1.614212418857619014, 0.000000000000000000, 0.000000000000000000 ) ) ;
#168 = DATE_AND_TIME ( #314, #216 ) ;
#169 = AXIS2_PLACEMENT_3D ( 'NONE', #138, #108, #90 ) ;
#170 = VECTOR ( 'NONE', #205, 1000.000000000000000 ) ;
#171 = PERSON_AND_ORGANIZATION ( #40, #1 ) ;
#172 = EDGE_CURVE ( 'NONE', #137, #95, #247, .T. ) ;
#173 = ADVANCED_FACE ( 'NONE', ( #274 ), #324, .F. ) ;
#174 = PERSON_AND_ORGANIZATION_ROLE ( 'design_supplier' ) ;
#175 = EDGE_CURVE ( 'NONE', #103, #137, #318, .T. ) ;
#176 = CARTESIAN_POINT ( 'NONE',  ( 3.000000000000000000, 0.000000000000000000, 0.000000000000000000 ) ) ;
#177 = AXIS2_PLACEMENT_3D ( 'NONE', #193, #322, #164 ) ;
#178 = VERTEX_POINT ( 'NONE', #63 ) ;
#179 = DIRECTION ( 'NONE',  ( 0.000000000000000000, 0.000000000000000000, 1.000000000000000000 ) ) ;
#180 = VERTEX_POINT ( 'NONE', #270 ) ;
#181 = DIRECTION ( 'NONE',  ( -1.000000000000000000, -0.000000000000000000, -0.000000000000000000 ) ) ;
#182 = ORIENTED_EDGE ( 'NONE', *, *, #262, .T. ) ;
#183 = CARTESIAN_POINT ( 'NONE',  ( 3.000000000000000000, 9.184850993605144000E-16, -7.499999999999997335 ) ) ;
#184 = ORIENTED_EDGE ( 'NONE', *, *, #51, .T. ) ;
#185 = EDGE_CURVE ( 'NONE', #69, #178, #127, .T. ) ;
#186 = DIRECTION ( 'NONE',  ( 0.000000000000000000, 0.000000000000000000, 1.000000000000000000 ) ) ;
#187 = VECTOR ( 'NONE', #17, 1000.000000000000000 ) ;
#188 = EDGE_LOOP ( 'NONE', ( #125, #47 ) ) ;
#189 = CARTESIAN_POINT ( 'NONE',  ( -1.614212418857619014, 1.555301434917138433E-15, -12.69999999999999929 ) ) ;
#190 = EDGE_LOOP ( 'NONE', ( #16, #249 ) ) ;
#191 = CIRCLE ( 'NONE', #169, 7.499999999999997335 ) ;
#192 = APPROVAL_ROLE ( '' ) ;
#193 = CARTESIAN_POINT ( 'NONE',  ( -1.614212418857619014, 0.000000000000000000, 0.000000000000000000 ) ) ;
#194 = PERSON_AND_ORGANIZATION ( #40, #1 ) ;
#195 = CALENDAR_DATE ( 2021, 5, 1 ) ;
#196 = LOCAL_TIME ( 10, 42, 19.00000000000000000, #218 ) ;
#197 = COORDINATED_UNIVERSAL_TIME_OFFSET ( 8, 0, .AHEAD. ) ;
#198 = CYLINDRICAL_SURFACE ( 'NONE', #177, 12.69999999999999929 ) ;
#199 = APPROVAL_STATUS ( 'not_yet_approved' ) ;
#200 = VECTOR ( 'NONE', #104, 1000.000000000000000 ) ;
#201 = DIRECTION ( 'NONE',  ( -1.000000000000000000, -0.000000000000000000, -0.000000000000000000 ) ) ;
#202 = CYLINDRICAL_SURFACE ( 'NONE', #14, 7.499999999999998224 ) ;
#203 = ORIENTED_EDGE ( 'NONE', *, *, #219, .T. ) ;
#204 = PRODUCT_DEFINITION_FORMATION_WITH_SPECIFIED_SOURCE ( 'ANY', '', #117, .NOT_KNOWN. ) ;
#205 = DIRECTION ( 'NONE',  ( -1.000000000000000000, -0.000000000000000000, -0.000000000000000000 ) ) ;
#206 = DIRECTION ( 'NONE',  ( 0.000000000000000000, 0.000000000000000000, 1.000000000000000000 ) ) ;
#207 = ORIENTED_EDGE ( 'NONE', *, *, #253, .T. ) ;
#208 = FACE_OUTER_BOUND ( 'NONE', #279, .T. ) ;
#209 = ORIENTED_EDGE ( 'NONE', *, *, #213, .T. ) ;
#210 = LINE ( 'NONE', #305, #46 ) ;
#211 = FACE_OUTER_BOUND ( 'NONE', #326, .T. ) ;
#212 = LINE ( 'NONE', #74, #200 ) ;
#213 = EDGE_CURVE ( 'NONE', #142, #277, #252, .T. ) ;
#214 = DIRECTION ( 'NONE',  ( -1.000000000000000000, -0.000000000000000000, -0.000000000000000000 ) ) ;
#215 = APPROVAL_ROLE ( '' ) ;
#216 = LOCAL_TIME ( 10, 42, 19.00000000000000000, #317 ) ;
#217 = DIRECTION ( 'NONE',  ( -1.000000000000000000, -0.000000000000000000, -0.000000000000000000 ) ) ;
#218 = COORDINATED_UNIVERSAL_TIME_OFFSET ( 8, 0, .AHEAD. ) ;
#219 = EDGE_CURVE ( 'NONE', #71, #95, #72, .T. ) ;
#220 = CC_DESIGN_PERSON_AND_ORGANIZATION_ASSIGNMENT ( #140, #84, ( #204 ) ) ;
#221 = PERSON_AND_ORGANIZATION_ROLE ( 'design_owner' ) ;
#222 = CC_DESIGN_SECURITY_CLASSIFICATION ( #62, ( #204 ) ) ;
#223 = CC_DESIGN_PERSON_AND_ORGANIZATION_ASSIGNMENT ( #113, #221, ( #117 ) ) ;
#224 = DIRECTION ( 'NONE',  ( 0.000000000000000000, 0.000000000000000000, -1.000000000000000000 ) ) ;
#225 = AXIS2_PLACEMENT_3D ( 'NONE', #2, #157, #107 ) ;
#226 = DIRECTION ( 'NONE',  ( -0.000000000000000000, 0.000000000000000000, 1.000000000000000000 ) ) ;
#227 = EDGE_CURVE ( 'NONE', #95, #71, #98, .T. ) ;
#228 = ORIENTED_EDGE ( 'NONE', *, *, #175, .T. ) ;
#229 = DIRECTION ( 'NONE',  ( 0.000000000000000000, 0.000000000000000000, 1.000000000000000000 ) ) ;
#230 = ORIENTED_EDGE ( 'NONE', *, *, #91, .F. ) ;
#231 = DIRECTION ( 'NONE',  ( 1.000000000000000000, 0.000000000000000000, 0.000000000000000000 ) ) ;
#232 = ORIENTED_EDGE ( 'NONE', *, *, #213, .F. ) ;
#233 = ORIENTED_EDGE ( 'NONE', *, *, #172, .F. ) ;
#234 = CIRCLE ( 'NONE', #85, 7.500000000000000000 ) ;
#235 = PLANE ( 'NONE',  #225 ) ;
#236 = LOCAL_TIME ( 10, 42, 19.00000000000000000, #197 ) ;
#237 = FACE_OUTER_BOUND ( 'NONE', #100, .T. ) ;
#238 = ADVANCED_FACE ( 'NONE', ( #208 ), #159, .F. ) ;
#239 = DIRECTION ( 'NONE',  ( -1.000000000000000000, -0.000000000000000000, -0.000000000000000000 ) ) ;
#240 = DIRECTION ( 'NONE',  ( 0.000000000000000000, 0.000000000000000000, -1.000000000000000000 ) ) ;
#241 = DATE_AND_TIME ( #115, #68 ) ;
#242 = ADVANCED_FACE ( 'NONE', ( #255 ), #302, .T. ) ;
#243 = CARTESIAN_POINT ( 'NONE',  ( -0.5000000000000004441, 0.000000000000000000, 7.499999999999998224 ) ) ;
#244 = AXIS2_PLACEMENT_3D ( 'NONE', #278, #239, #335 ) ;
#245 = CARTESIAN_POINT ( 'NONE',  ( -3.000000000000000000, 7.500000000000000000, 0.000000000000000000 ) ) ;
#246 = DIRECTION ( 'NONE',  ( 0.000000000000000000, 0.000000000000000000, 1.000000000000000000 ) ) ;
#247 = LINE ( 'NONE', #66, #105 ) ;
#248 = AXIS2_PLACEMENT_3D ( 'NONE', #308, #111, #165 ) ;
#249 = ORIENTED_EDGE ( 'NONE', *, *, #86, .F. ) ;
#250 = DIRECTION ( 'NONE',  ( -1.000000000000000000, -0.000000000000000000, -0.000000000000000000 ) ) ;
#251 = EDGE_LOOP ( 'NONE', ( #283, #182, #44, #303 ) ) ;
#252 = CIRCLE ( 'NONE', #93, 7.500000000000000000 ) ;
#253 = EDGE_CURVE ( 'NONE', #178, #180, #212, .T. ) ;
#254 = ORIENTED_EDGE ( 'NONE', *, *, #327, .F. ) ;
#255 = FACE_OUTER_BOUND ( 'NONE', #43, .T. ) ;
#256 = VERTEX_POINT ( 'NONE', #309 ) ;
#257 = FACE_OUTER_BOUND ( 'NONE', #21, .T. ) ;
#258 = FACE_OUTER_BOUND ( 'NONE', #281, .T. ) ;
#259 = DIRECTION ( 'NONE',  ( 0.000000000000000000, 0.000000000000000000, -1.000000000000000000 ) ) ;
#260 = DIRECTION ( 'NONE',  ( 1.000000000000000000, 0.000000000000000000, 0.000000000000000000 ) ) ;
#261 = CARTESIAN_POINT ( 'NONE',  ( -0.5000000000000004441, 0.000000000000000000, 0.000000000000000000 ) ) ;
#262 = EDGE_CURVE ( 'NONE', #272, #277, #210, .T. ) ;
#263 = AXIS2_PLACEMENT_3D ( 'NONE', #4, #132, #311 ) ;
#264 = APPROVAL_DATE_TIME ( #168, #33 ) ;
#265 = DATE_TIME_ROLE ( 'classification_date' ) ;
#266 = PLANE ( 'NONE',  #126 ) ;
#267 = EDGE_CURVE ( 'NONE', #103, #71, #307, .T. ) ;
#268 = CIRCLE ( 'NONE', #248, 12.69999999999999929 ) ;
#269 = DIRECTION ( 'NONE',  ( -1.000000000000000000, 0.000000000000000000, -0.000000000000000000 ) ) ;
#270 = CARTESIAN_POINT ( 'NONE',  ( -3.000000000000000000, 9.184850993605147944E-16, -7.500000000000000000 ) ) ;
#271 = CARTESIAN_POINT ( 'NONE',  ( 3.000000000000000000, 0.000000000000000000, 12.69999999999999929 ) ) ;
#272 = VERTEX_POINT ( 'NONE', #183 ) ;
#273 = LOCAL_TIME ( 10, 42, 19.00000000000000000, #92 ) ;
#274 = FACE_OUTER_BOUND ( 'NONE', #298, .T. ) ;
#275 = ORIENTED_EDGE ( 'NONE', *, *, #65, .T. ) ;
#276 = DIRECTION ( 'NONE',  ( -1.000000000000000000, -0.000000000000000000, -0.000000000000000000 ) ) ;
#277 = VERTEX_POINT ( 'NONE', #49 ) ;
#278 = CARTESIAN_POINT ( 'NONE',  ( -1.614212418857619014, 0.000000000000000000, 0.000000000000000000 ) ) ;
#279 = EDGE_LOOP ( 'NONE', ( #329, #156, #75, #42 ) ) ;
#280 = AXIS2_PLACEMENT_3D ( 'NONE', #120, #269, #226 ) ;
#281 = EDGE_LOOP ( 'NONE', ( #128, #207, #300, #254 ) ) ;
#282 = DIRECTION ( 'NONE',  ( -1.000000000000000000, -0.000000000000000000, -0.000000000000000000 ) ) ;
#283 = ORIENTED_EDGE ( 'NONE', *, *, #51, .F. ) ;
#284 = DIRECTION ( 'NONE',  ( 0.000000000000000000, 0.000000000000000000, 1.000000000000000000 ) ) ;
#285 = CC_DESIGN_APPROVAL ( #323, ( #320 ) ) ;
#286 = APPROVAL_DATE_TIME ( #88, #323 ) ;
#287 = FACE_OUTER_BOUND ( 'NONE', #188, .T. ) ;
#288 = FACE_BOUND ( 'NONE', #190, .T. ) ;
#289 = APPROVAL_STATUS ( 'not_yet_approved' ) ;
#290 = AXIS2_PLACEMENT_3D ( 'NONE', #176, #295, #36 ) ;
#291 = APPROVAL_DATE_TIME ( #143, #319 ) ;
#292 = PERSON_AND_ORGANIZATION_ROLE ( 'creator' ) ;
#293 = PERSON_AND_ORGANIZATION_ROLE ( 'classification_officer' ) ;
#294 = CARTESIAN_POINT ( 'NONE',  ( -3.000000000000000000, 0.000000000000000000, 0.000000000000000000 ) ) ;
#295 = DIRECTION ( 'NONE',  ( -1.000000000000000000, -0.000000000000000000, -0.000000000000000000 ) ) ;
#296 = MANIFOLD_SOLID_BREP ( 'Ðý×', #29 ) ;
#297 = AXIS2_PLACEMENT_3D ( 'NONE', #294, #201, #229 ) ;
#298 = EDGE_LOOP ( 'NONE', ( #232, #230 ) ) ;
#299 = CC_DESIGN_PERSON_AND_ORGANIZATION_ASSIGNMENT ( #171, #174, ( #204 ) ) ;
#300 = ORIENTED_EDGE ( 'NONE', *, *, #86, .T. ) ;
#301 = VERTEX_POINT ( 'NONE', #45 ) ;
#302 = CYLINDRICAL_SURFACE ( 'NONE', #244, 12.69999999999999929 ) ;
#303 = ORIENTED_EDGE ( 'NONE', *, *, #129, .F. ) ;
#304 = AXIS2_PLACEMENT_3D ( 'NONE', #155, #131, #206 ) ;
#305 = CARTESIAN_POINT ( 'NONE',  ( -1.614212418857619014, 9.184850993605145972E-16, -7.499999999999998224 ) ) ;
#306 = ORIENTED_EDGE ( 'NONE', *, *, #172, .T. ) ;
#307 = LINE ( 'NONE', #189, #57 ) ;
#308 = CARTESIAN_POINT ( 'NONE',  ( 3.000000000000000000, 0.000000000000000000, 0.000000000000000000 ) ) ;
#309 = CARTESIAN_POINT ( 'NONE',  ( 3.000000000000000000, 0.000000000000000000, 7.499999999999997335 ) ) ;
#310 = UNCERTAINTY_MEASURE_WITH_UNIT (LENGTH_MEASURE( 1.000000000000000082E-05 ), #76, 'distance_accuracy_value', 'NONE');
#311 = DIRECTION ( 'NONE',  ( 0.000000000000000000, 0.000000000000000000, 1.000000000000000000 ) ) ;
#312 = CIRCLE ( 'NONE', #297, 7.500000000000000000 ) ;
#313 = DATE_AND_TIME ( #141, #236 ) ;
#314 = CALENDAR_DATE ( 2021, 5, 1 ) ;
#315 = CARTESIAN_POINT ( 'NONE',  ( -3.000000000000000000, 0.000000000000000000, 12.69999999999999929 ) ) ;
#316 = DESIGN_CONTEXT ( 'detailed design', #81, 'design' ) ;
#317 = COORDINATED_UNIVERSAL_TIME_OFFSET ( 8, 0, .AHEAD. ) ;
#318 = CIRCLE ( 'NONE', #290, 12.69999999999999929 ) ;
#319 = APPROVAL ( #199, 'UNSPECIFIED' ) ;
#320 = PRODUCT_DEFINITION ( 'UNKNOWN', '', #204, #316 ) ;
#321 = SECURITY_CLASSIFICATION_LEVEL ( 'unclassified' ) ;
#322 = DIRECTION ( 'NONE',  ( -1.000000000000000000, -0.000000000000000000, -0.000000000000000000 ) ) ;
#323 = APPROVAL ( #289, 'UNSPECIFIED' ) ;
#324 = PLANE ( 'NONE',  #280 ) ;
#325 = AXIS2_PLACEMENT_3D ( 'NONE', #99, #109, #186 ) ;
#326 = EDGE_LOOP ( 'NONE', ( #275, #124, #67, #233 ) ) ;
#327 = EDGE_CURVE ( 'NONE', #69, #301, #161, .T. ) ;
#328 = AXIS2_PLACEMENT_3D ( 'NONE', #139, #8, #260 ) ;
#329 = ORIENTED_EDGE ( 'NONE', *, *, #253, .F. ) ;
#330 = CARTESIAN_POINT ( 'NONE',  ( -0.5000000000000004441, 0.000000000000000000, 0.000000000000000000 ) ) ;
#331 = ADVANCED_FACE ( 'NONE', ( #257, #133 ), #235, .F. ) ;
#332 = EDGE_LOOP ( 'NONE', ( #50, #203 ) ) ;
#333 = DIRECTION ( 'NONE',  ( 0.000000000000000000, 0.000000000000000000, -1.000000000000000000 ) ) ;
#334 = ORIENTED_EDGE ( 'NONE', *, *, #154, .T. ) ;
#335 = DIRECTION ( 'NONE',  ( 0.000000000000000000, 0.000000000000000000, 1.000000000000000000 ) ) ;
ENDSEC;
END-ISO-10303-21;
